ISO-10303-21;
HEADER;
/* Generated by software containing ST-Developer
 * from STEP Tools, Inc. (www.steptools.com) 
 */

FILE_DESCRIPTION(
/* description */ (''),
/* implementation_level */ '2;1');

FILE_NAME(
/* name */ 
'C:/Users/JPA092/Documents/James/Ender3/3D Print Files/Components/SG90
/SG90_arm v2.step',
/* time_stamp */ '2019-07-09T11:03:17+03:00',
/* author */ (''),
/* organization */ (''),
/* preprocessor_version */ 'ST-DEVELOPER v18',
/* originating_system */ 'Autodesk Translation Framework v8.2.0.1029',
/* authorisation */ '');

FILE_SCHEMA (('AUTOMOTIVE_DESIGN { 1 0 10303 214 3 1 1 }'));
ENDSEC;

DATA;
#10=MECHANICAL_DESIGN_GEOMETRIC_PRESENTATION_REPRESENTATION('',(#17),#589);
#11=ITEM_DEFINED_TRANSFORMATION($,$,#346,#388);
#12=(
REPRESENTATION_RELATIONSHIP($,$,#600,#599)
REPRESENTATION_RELATIONSHIP_WITH_TRANSFORMATION(#11)
SHAPE_REPRESENTATION_RELATIONSHIP()
);
#13=CONTEXT_DEPENDENT_SHAPE_REPRESENTATION(#12,#598);
#14=NEXT_ASSEMBLY_USAGE_OCCURRENCE('SG90_arm:1','SG90_arm:1',
'SG90_arm:1',#602,#603,'SG90_arm:1');
#15=SHAPE_REPRESENTATION_RELATIONSHIP('SRR','None',#600,#16);
#16=ADVANCED_BREP_SHAPE_REPRESENTATION('',(#18),#588);
#17=STYLED_ITEM('',(#614),#18);
#18=MANIFOLD_SOLID_BREP('Body1',#332);
#19=FACE_BOUND('',#73,.T.);
#20=FACE_BOUND('',#74,.T.);
#21=FACE_BOUND('',#75,.T.);
#22=FACE_BOUND('',#76,.T.);
#23=FACE_BOUND('',#77,.T.);
#24=FACE_BOUND('',#78,.T.);
#25=FACE_BOUND('',#79,.T.);
#26=FACE_BOUND('',#82,.T.);
#27=FACE_BOUND('',#85,.T.);
#28=FACE_BOUND('',#97,.T.);
#29=FACE_BOUND('',#98,.T.);
#30=FACE_BOUND('',#99,.T.);
#31=FACE_BOUND('',#100,.T.);
#32=FACE_BOUND('',#101,.T.);
#33=FACE_BOUND('',#102,.T.);
#34=FACE_BOUND('',#103,.T.);
#35=PLANE('',#352);
#36=PLANE('',#364);
#37=PLANE('',#368);
#38=PLANE('',#381);
#39=PLANE('',#384);
#40=PLANE('',#387);
#41=CYLINDRICAL_SURFACE('',#350,1.75);
#42=CYLINDRICAL_SURFACE('',#361,2.3);
#43=CYLINDRICAL_SURFACE('',#365,2.8);
#44=CYLINDRICAL_SURFACE('',#369,0.7);
#45=CYLINDRICAL_SURFACE('',#371,0.7);
#46=CYLINDRICAL_SURFACE('',#373,0.7);
#47=CYLINDRICAL_SURFACE('',#375,0.7);
#48=CYLINDRICAL_SURFACE('',#377,0.7);
#49=CYLINDRICAL_SURFACE('',#379,0.7);
#50=CYLINDRICAL_SURFACE('',#382,3.);
#51=CYLINDRICAL_SURFACE('',#385,1.5);
#52=FACE_OUTER_BOUND('',#70,.T.);
#53=FACE_OUTER_BOUND('',#71,.T.);
#54=FACE_OUTER_BOUND('',#72,.T.);
#55=FACE_OUTER_BOUND('',#80,.T.);
#56=FACE_OUTER_BOUND('',#81,.T.);
#57=FACE_OUTER_BOUND('',#83,.T.);
#58=FACE_OUTER_BOUND('',#84,.T.);
#59=FACE_OUTER_BOUND('',#86,.T.);
#60=FACE_OUTER_BOUND('',#87,.T.);
#61=FACE_OUTER_BOUND('',#88,.T.);
#62=FACE_OUTER_BOUND('',#89,.T.);
#63=FACE_OUTER_BOUND('',#90,.T.);
#64=FACE_OUTER_BOUND('',#91,.T.);
#65=FACE_OUTER_BOUND('',#92,.T.);
#66=FACE_OUTER_BOUND('',#93,.T.);
#67=FACE_OUTER_BOUND('',#94,.T.);
#68=FACE_OUTER_BOUND('',#95,.T.);
#69=FACE_OUTER_BOUND('',#96,.T.);
#70=EDGE_LOOP('',(#231,#232,#233,#234));
#71=EDGE_LOOP('',(#235,#236,#237,#238));
#72=EDGE_LOOP('',(#239,#240,#241,#242));
#73=EDGE_LOOP('',(#243));
#74=EDGE_LOOP('',(#244));
#75=EDGE_LOOP('',(#245));
#76=EDGE_LOOP('',(#246));
#77=EDGE_LOOP('',(#247));
#78=EDGE_LOOP('',(#248));
#79=EDGE_LOOP('',(#249));
#80=EDGE_LOOP('',(#250,#251,#252,#253));
#81=EDGE_LOOP('',(#254));
#82=EDGE_LOOP('',(#255));
#83=EDGE_LOOP('',(#256,#257,#258,#259));
#84=EDGE_LOOP('',(#260));
#85=EDGE_LOOP('',(#261));
#86=EDGE_LOOP('',(#262,#263,#264,#265));
#87=EDGE_LOOP('',(#266,#267,#268,#269));
#88=EDGE_LOOP('',(#270,#271,#272,#273));
#89=EDGE_LOOP('',(#274,#275,#276,#277));
#90=EDGE_LOOP('',(#278,#279,#280,#281));
#91=EDGE_LOOP('',(#282,#283,#284,#285));
#92=EDGE_LOOP('',(#286,#287,#288,#289));
#93=EDGE_LOOP('',(#290,#291,#292,#293));
#94=EDGE_LOOP('',(#294,#295,#296,#297));
#95=EDGE_LOOP('',(#298,#299,#300,#301));
#96=EDGE_LOOP('',(#302,#303,#304,#305));
#97=EDGE_LOOP('',(#306));
#98=EDGE_LOOP('',(#307));
#99=EDGE_LOOP('',(#308));
#100=EDGE_LOOP('',(#309));
#101=EDGE_LOOP('',(#310));
#102=EDGE_LOOP('',(#311));
#103=EDGE_LOOP('',(#312));
#104=LINE('',#501,#122);
#105=LINE('',#506,#123);
#106=LINE('',#512,#124);
#107=LINE('',#515,#125);
#108=LINE('',#532,#126);
#109=LINE('',#539,#127);
#110=LINE('',#545,#128);
#111=LINE('',#549,#129);
#112=LINE('',#553,#130);
#113=LINE('',#557,#131);
#114=LINE('',#561,#132);
#115=LINE('',#565,#133);
#116=LINE('',#568,#134);
#117=LINE('',#570,#135);
#118=LINE('',#571,#136);
#119=LINE('',#575,#137);
#120=LINE('',#578,#138);
#121=LINE('',#579,#139);
#122=VECTOR('',#397,2.);
#123=VECTOR('',#404,1.75);
#124=VECTOR('',#409,10.);
#125=VECTOR('',#412,10.);
#126=VECTOR('',#429,2.3);
#127=VECTOR('',#438,2.8);
#128=VECTOR('',#447,0.7);
#129=VECTOR('',#452,0.7);
#130=VECTOR('',#457,0.7);
#131=VECTOR('',#462,0.7);
#132=VECTOR('',#467,0.7);
#133=VECTOR('',#472,0.7);
#134=VECTOR('',#475,10.);
#135=VECTOR('',#476,10.);
#136=VECTOR('',#477,10.);
#137=VECTOR('',#482,10.);
#138=VECTOR('',#485,10.);
#139=VECTOR('',#486,10.);
#140=CIRCLE('',#348,2.25);
#141=CIRCLE('',#349,1.75);
#142=CIRCLE('',#351,1.75);
#143=CIRCLE('',#353,1.5);
#144=CIRCLE('',#354,3.);
#145=CIRCLE('',#355,0.7);
#146=CIRCLE('',#356,0.7);
#147=CIRCLE('',#357,0.7);
#148=CIRCLE('',#358,0.7);
#149=CIRCLE('',#359,0.7);
#150=CIRCLE('',#360,0.7);
#151=CIRCLE('',#362,2.3);
#152=CIRCLE('',#363,2.3);
#153=CIRCLE('',#366,2.8);
#154=CIRCLE('',#367,2.8);
#155=CIRCLE('',#370,0.7);
#156=CIRCLE('',#372,0.7);
#157=CIRCLE('',#374,0.7);
#158=CIRCLE('',#376,0.7);
#159=CIRCLE('',#378,0.7);
#160=CIRCLE('',#380,0.7);
#161=CIRCLE('',#383,3.);
#162=CIRCLE('',#386,1.5);
#163=VERTEX_POINT('',#498);
#164=VERTEX_POINT('',#500);
#165=VERTEX_POINT('',#504);
#166=VERTEX_POINT('',#508);
#167=VERTEX_POINT('',#509);
#168=VERTEX_POINT('',#511);
#169=VERTEX_POINT('',#513);
#170=VERTEX_POINT('',#516);
#171=VERTEX_POINT('',#518);
#172=VERTEX_POINT('',#520);
#173=VERTEX_POINT('',#522);
#174=VERTEX_POINT('',#524);
#175=VERTEX_POINT('',#526);
#176=VERTEX_POINT('',#529);
#177=VERTEX_POINT('',#531);
#178=VERTEX_POINT('',#536);
#179=VERTEX_POINT('',#538);
#180=VERTEX_POINT('',#543);
#181=VERTEX_POINT('',#547);
#182=VERTEX_POINT('',#551);
#183=VERTEX_POINT('',#555);
#184=VERTEX_POINT('',#559);
#185=VERTEX_POINT('',#563);
#186=VERTEX_POINT('',#567);
#187=VERTEX_POINT('',#569);
#188=VERTEX_POINT('',#573);
#189=VERTEX_POINT('',#577);
#190=EDGE_CURVE('',#163,#163,#140,.T.);
#191=EDGE_CURVE('',#163,#164,#104,.T.);
#192=EDGE_CURVE('',#164,#164,#141,.T.);
#193=EDGE_CURVE('',#165,#165,#142,.T.);
#194=EDGE_CURVE('',#165,#164,#105,.T.);
#195=EDGE_CURVE('',#166,#167,#143,.T.);
#196=EDGE_CURVE('',#166,#168,#106,.T.);
#197=EDGE_CURVE('',#169,#168,#144,.T.);
#198=EDGE_CURVE('',#167,#169,#107,.T.);
#199=EDGE_CURVE('',#170,#170,#145,.T.);
#200=EDGE_CURVE('',#171,#171,#146,.T.);
#201=EDGE_CURVE('',#172,#172,#147,.T.);
#202=EDGE_CURVE('',#173,#173,#148,.T.);
#203=EDGE_CURVE('',#174,#174,#149,.T.);
#204=EDGE_CURVE('',#175,#175,#150,.T.);
#205=EDGE_CURVE('',#176,#176,#151,.T.);
#206=EDGE_CURVE('',#176,#177,#108,.T.);
#207=EDGE_CURVE('',#177,#177,#152,.T.);
#208=EDGE_CURVE('',#178,#178,#153,.T.);
#209=EDGE_CURVE('',#178,#179,#109,.T.);
#210=EDGE_CURVE('',#179,#179,#154,.T.);
#211=EDGE_CURVE('',#180,#180,#155,.T.);
#212=EDGE_CURVE('',#180,#170,#110,.T.);
#213=EDGE_CURVE('',#181,#181,#156,.T.);
#214=EDGE_CURVE('',#181,#171,#111,.T.);
#215=EDGE_CURVE('',#182,#182,#157,.T.);
#216=EDGE_CURVE('',#182,#172,#112,.T.);
#217=EDGE_CURVE('',#183,#183,#158,.T.);
#218=EDGE_CURVE('',#183,#173,#113,.T.);
#219=EDGE_CURVE('',#184,#184,#159,.T.);
#220=EDGE_CURVE('',#184,#174,#114,.T.);
#221=EDGE_CURVE('',#185,#185,#160,.T.);
#222=EDGE_CURVE('',#185,#175,#115,.T.);
#223=EDGE_CURVE('',#166,#186,#116,.T.);
#224=EDGE_CURVE('',#187,#186,#117,.T.);
#225=EDGE_CURVE('',#168,#187,#118,.T.);
#226=EDGE_CURVE('',#188,#187,#161,.T.);
#227=EDGE_CURVE('',#169,#188,#119,.T.);
#228=EDGE_CURVE('',#189,#188,#120,.T.);
#229=EDGE_CURVE('',#167,#189,#121,.T.);
#230=EDGE_CURVE('',#186,#189,#162,.T.);
#231=ORIENTED_EDGE('',*,*,#190,.T.);
#232=ORIENTED_EDGE('',*,*,#191,.T.);
#233=ORIENTED_EDGE('',*,*,#192,.T.);
#234=ORIENTED_EDGE('',*,*,#191,.F.);
#235=ORIENTED_EDGE('',*,*,#193,.F.);
#236=ORIENTED_EDGE('',*,*,#194,.T.);
#237=ORIENTED_EDGE('',*,*,#192,.F.);
#238=ORIENTED_EDGE('',*,*,#194,.F.);
#239=ORIENTED_EDGE('',*,*,#195,.F.);
#240=ORIENTED_EDGE('',*,*,#196,.T.);
#241=ORIENTED_EDGE('',*,*,#197,.F.);
#242=ORIENTED_EDGE('',*,*,#198,.F.);
#243=ORIENTED_EDGE('',*,*,#199,.F.);
#244=ORIENTED_EDGE('',*,*,#200,.F.);
#245=ORIENTED_EDGE('',*,*,#201,.F.);
#246=ORIENTED_EDGE('',*,*,#202,.F.);
#247=ORIENTED_EDGE('',*,*,#203,.F.);
#248=ORIENTED_EDGE('',*,*,#204,.F.);
#249=ORIENTED_EDGE('',*,*,#190,.F.);
#250=ORIENTED_EDGE('',*,*,#205,.F.);
#251=ORIENTED_EDGE('',*,*,#206,.T.);
#252=ORIENTED_EDGE('',*,*,#207,.T.);
#253=ORIENTED_EDGE('',*,*,#206,.F.);
#254=ORIENTED_EDGE('',*,*,#207,.F.);
#255=ORIENTED_EDGE('',*,*,#193,.T.);
#256=ORIENTED_EDGE('',*,*,#208,.F.);
#257=ORIENTED_EDGE('',*,*,#209,.T.);
#258=ORIENTED_EDGE('',*,*,#210,.F.);
#259=ORIENTED_EDGE('',*,*,#209,.F.);
#260=ORIENTED_EDGE('',*,*,#208,.T.);
#261=ORIENTED_EDGE('',*,*,#205,.T.);
#262=ORIENTED_EDGE('',*,*,#211,.F.);
#263=ORIENTED_EDGE('',*,*,#212,.T.);
#264=ORIENTED_EDGE('',*,*,#199,.T.);
#265=ORIENTED_EDGE('',*,*,#212,.F.);
#266=ORIENTED_EDGE('',*,*,#213,.F.);
#267=ORIENTED_EDGE('',*,*,#214,.T.);
#268=ORIENTED_EDGE('',*,*,#200,.T.);
#269=ORIENTED_EDGE('',*,*,#214,.F.);
#270=ORIENTED_EDGE('',*,*,#215,.F.);
#271=ORIENTED_EDGE('',*,*,#216,.T.);
#272=ORIENTED_EDGE('',*,*,#201,.T.);
#273=ORIENTED_EDGE('',*,*,#216,.F.);
#274=ORIENTED_EDGE('',*,*,#217,.F.);
#275=ORIENTED_EDGE('',*,*,#218,.T.);
#276=ORIENTED_EDGE('',*,*,#202,.T.);
#277=ORIENTED_EDGE('',*,*,#218,.F.);
#278=ORIENTED_EDGE('',*,*,#219,.F.);
#279=ORIENTED_EDGE('',*,*,#220,.T.);
#280=ORIENTED_EDGE('',*,*,#203,.T.);
#281=ORIENTED_EDGE('',*,*,#220,.F.);
#282=ORIENTED_EDGE('',*,*,#221,.F.);
#283=ORIENTED_EDGE('',*,*,#222,.T.);
#284=ORIENTED_EDGE('',*,*,#204,.T.);
#285=ORIENTED_EDGE('',*,*,#222,.F.);
#286=ORIENTED_EDGE('',*,*,#196,.F.);
#287=ORIENTED_EDGE('',*,*,#223,.T.);
#288=ORIENTED_EDGE('',*,*,#224,.F.);
#289=ORIENTED_EDGE('',*,*,#225,.F.);
#290=ORIENTED_EDGE('',*,*,#197,.T.);
#291=ORIENTED_EDGE('',*,*,#225,.T.);
#292=ORIENTED_EDGE('',*,*,#226,.F.);
#293=ORIENTED_EDGE('',*,*,#227,.F.);
#294=ORIENTED_EDGE('',*,*,#198,.T.);
#295=ORIENTED_EDGE('',*,*,#227,.T.);
#296=ORIENTED_EDGE('',*,*,#228,.F.);
#297=ORIENTED_EDGE('',*,*,#229,.F.);
#298=ORIENTED_EDGE('',*,*,#195,.T.);
#299=ORIENTED_EDGE('',*,*,#229,.T.);
#300=ORIENTED_EDGE('',*,*,#230,.F.);
#301=ORIENTED_EDGE('',*,*,#223,.F.);
#302=ORIENTED_EDGE('',*,*,#230,.T.);
#303=ORIENTED_EDGE('',*,*,#228,.T.);
#304=ORIENTED_EDGE('',*,*,#226,.T.);
#305=ORIENTED_EDGE('',*,*,#224,.T.);
#306=ORIENTED_EDGE('',*,*,#221,.T.);
#307=ORIENTED_EDGE('',*,*,#219,.T.);
#308=ORIENTED_EDGE('',*,*,#217,.T.);
#309=ORIENTED_EDGE('',*,*,#215,.T.);
#310=ORIENTED_EDGE('',*,*,#213,.T.);
#311=ORIENTED_EDGE('',*,*,#210,.T.);
#312=ORIENTED_EDGE('',*,*,#211,.T.);
#313=CONICAL_SURFACE('',#347,2.,0.785398163397449);
#314=ADVANCED_FACE('',(#52),#313,.F.);
#315=ADVANCED_FACE('',(#53),#41,.F.);
#316=ADVANCED_FACE('',(#54,#19,#20,#21,#22,#23,#24,#25),#35,.F.);
#317=ADVANCED_FACE('',(#55),#42,.F.);
#318=ADVANCED_FACE('',(#56,#26),#36,.T.);
#319=ADVANCED_FACE('',(#57),#43,.T.);
#320=ADVANCED_FACE('',(#58,#27),#37,.T.);
#321=ADVANCED_FACE('',(#59),#44,.F.);
#322=ADVANCED_FACE('',(#60),#45,.F.);
#323=ADVANCED_FACE('',(#61),#46,.F.);
#324=ADVANCED_FACE('',(#62),#47,.F.);
#325=ADVANCED_FACE('',(#63),#48,.F.);
#326=ADVANCED_FACE('',(#64),#49,.F.);
#327=ADVANCED_FACE('',(#65),#38,.T.);
#328=ADVANCED_FACE('',(#66),#50,.T.);
#329=ADVANCED_FACE('',(#67),#39,.T.);
#330=ADVANCED_FACE('',(#68),#51,.T.);
#331=ADVANCED_FACE('',(#69,#28,#29,#30,#31,#32,#33,#34),#40,.T.);
#332=CLOSED_SHELL('',(#314,#315,#316,#317,#318,#319,#320,#321,#322,#323,
#324,#325,#326,#327,#328,#329,#330,#331));
#333=DERIVED_UNIT_ELEMENT(#335,1.);
#334=DERIVED_UNIT_ELEMENT(#591,3.);
#335=(
MASS_UNIT()
NAMED_UNIT(*)
SI_UNIT(.KILO.,.GRAM.)
);
#336=DERIVED_UNIT((#333,#334));
#337=MEASURE_REPRESENTATION_ITEM('density measure',
POSITIVE_RATIO_MEASURE(7850.),#336);
#338=PROPERTY_DEFINITION_REPRESENTATION(#343,#340);
#339=PROPERTY_DEFINITION_REPRESENTATION(#344,#341);
#340=REPRESENTATION('material name',(#342),#588);
#341=REPRESENTATION('density',(#337),#588);
#342=DESCRIPTIVE_REPRESENTATION_ITEM('Steel','Steel');
#343=PROPERTY_DEFINITION('material property','material name',#603);
#344=PROPERTY_DEFINITION('material property','density of part',#603);
#345=AXIS2_PLACEMENT_3D('placement',#495,#389,#390);
#346=AXIS2_PLACEMENT_3D('placement',#496,#391,#392);
#347=AXIS2_PLACEMENT_3D('',#497,#393,#394);
#348=AXIS2_PLACEMENT_3D('',#499,#395,#396);
#349=AXIS2_PLACEMENT_3D('',#502,#398,#399);
#350=AXIS2_PLACEMENT_3D('',#503,#400,#401);
#351=AXIS2_PLACEMENT_3D('',#505,#402,#403);
#352=AXIS2_PLACEMENT_3D('',#507,#405,#406);
#353=AXIS2_PLACEMENT_3D('',#510,#407,#408);
#354=AXIS2_PLACEMENT_3D('',#514,#410,#411);
#355=AXIS2_PLACEMENT_3D('',#517,#413,#414);
#356=AXIS2_PLACEMENT_3D('',#519,#415,#416);
#357=AXIS2_PLACEMENT_3D('',#521,#417,#418);
#358=AXIS2_PLACEMENT_3D('',#523,#419,#420);
#359=AXIS2_PLACEMENT_3D('',#525,#421,#422);
#360=AXIS2_PLACEMENT_3D('',#527,#423,#424);
#361=AXIS2_PLACEMENT_3D('',#528,#425,#426);
#362=AXIS2_PLACEMENT_3D('',#530,#427,#428);
#363=AXIS2_PLACEMENT_3D('',#533,#430,#431);
#364=AXIS2_PLACEMENT_3D('',#534,#432,#433);
#365=AXIS2_PLACEMENT_3D('',#535,#434,#435);
#366=AXIS2_PLACEMENT_3D('',#537,#436,#437);
#367=AXIS2_PLACEMENT_3D('',#540,#439,#440);
#368=AXIS2_PLACEMENT_3D('',#541,#441,#442);
#369=AXIS2_PLACEMENT_3D('',#542,#443,#444);
#370=AXIS2_PLACEMENT_3D('',#544,#445,#446);
#371=AXIS2_PLACEMENT_3D('',#546,#448,#449);
#372=AXIS2_PLACEMENT_3D('',#548,#450,#451);
#373=AXIS2_PLACEMENT_3D('',#550,#453,#454);
#374=AXIS2_PLACEMENT_3D('',#552,#455,#456);
#375=AXIS2_PLACEMENT_3D('',#554,#458,#459);
#376=AXIS2_PLACEMENT_3D('',#556,#460,#461);
#377=AXIS2_PLACEMENT_3D('',#558,#463,#464);
#378=AXIS2_PLACEMENT_3D('',#560,#465,#466);
#379=AXIS2_PLACEMENT_3D('',#562,#468,#469);
#380=AXIS2_PLACEMENT_3D('',#564,#470,#471);
#381=AXIS2_PLACEMENT_3D('',#566,#473,#474);
#382=AXIS2_PLACEMENT_3D('',#572,#478,#479);
#383=AXIS2_PLACEMENT_3D('',#574,#480,#481);
#384=AXIS2_PLACEMENT_3D('',#576,#483,#484);
#385=AXIS2_PLACEMENT_3D('',#580,#487,#488);
#386=AXIS2_PLACEMENT_3D('',#581,#489,#490);
#387=AXIS2_PLACEMENT_3D('',#582,#491,#492);
#388=AXIS2_PLACEMENT_3D('',#583,#493,#494);
#389=DIRECTION('axis',(0.,0.,1.));
#390=DIRECTION('refdir',(1.,0.,0.));
#391=DIRECTION('axis',(0.,0.,1.));
#392=DIRECTION('refdir',(1.,0.,0.));
#393=DIRECTION('center_axis',(0.,0.,-1.));
#394=DIRECTION('ref_axis',(-1.,0.,0.));
#395=DIRECTION('center_axis',(0.,0.,-1.));
#396=DIRECTION('ref_axis',(-1.,0.,0.));
#397=DIRECTION('',(-0.707106781186548,8.65956056235494E-17,0.707106781186547));
#398=DIRECTION('center_axis',(0.,0.,1.));
#399=DIRECTION('ref_axis',(-1.,0.,0.));
#400=DIRECTION('center_axis',(0.,0.,-1.));
#401=DIRECTION('ref_axis',(-1.,0.,0.));
#402=DIRECTION('center_axis',(0.,0.,-1.));
#403=DIRECTION('ref_axis',(-1.,0.,0.));
#404=DIRECTION('',(0.,0.,-1.));
#405=DIRECTION('center_axis',(0.,0.,1.));
#406=DIRECTION('ref_axis',(1.,0.,0.));
#407=DIRECTION('center_axis',(0.,0.,1.));
#408=DIRECTION('ref_axis',(0.99498743710662,0.100000000000002,0.));
#409=DIRECTION('',(0.1,-0.99498743710662,0.));
#410=DIRECTION('center_axis',(0.,0.,1.));
#411=DIRECTION('ref_axis',(-0.99498743710662,0.1,0.));
#412=DIRECTION('',(-0.1,-0.99498743710662,0.));
#413=DIRECTION('center_axis',(0.,0.,-1.));
#414=DIRECTION('ref_axis',(1.,0.,0.));
#415=DIRECTION('center_axis',(0.,0.,-1.));
#416=DIRECTION('ref_axis',(1.,0.,0.));
#417=DIRECTION('center_axis',(0.,0.,-1.));
#418=DIRECTION('ref_axis',(1.,0.,0.));
#419=DIRECTION('center_axis',(0.,0.,-1.));
#420=DIRECTION('ref_axis',(1.,0.,0.));
#421=DIRECTION('center_axis',(0.,0.,-1.));
#422=DIRECTION('ref_axis',(1.,0.,0.));
#423=DIRECTION('center_axis',(0.,0.,-1.));
#424=DIRECTION('ref_axis',(1.,0.,0.));
#425=DIRECTION('center_axis',(0.,0.,-1.));
#426=DIRECTION('ref_axis',(-1.,0.,0.));
#427=DIRECTION('center_axis',(0.,0.,-1.));
#428=DIRECTION('ref_axis',(-1.,0.,0.));
#429=DIRECTION('',(0.,0.,-1.));
#430=DIRECTION('center_axis',(0.,0.,-1.));
#431=DIRECTION('ref_axis',(-1.,0.,0.));
#432=DIRECTION('center_axis',(0.,0.,1.));
#433=DIRECTION('ref_axis',(-1.,0.,0.));
#434=DIRECTION('center_axis',(0.,0.,1.));
#435=DIRECTION('ref_axis',(1.,0.,0.));
#436=DIRECTION('center_axis',(0.,0.,1.));
#437=DIRECTION('ref_axis',(1.,0.,0.));
#438=DIRECTION('',(0.,0.,-1.));
#439=DIRECTION('center_axis',(0.,0.,-1.));
#440=DIRECTION('ref_axis',(1.,0.,0.));
#441=DIRECTION('center_axis',(0.,0.,1.));
#442=DIRECTION('ref_axis',(1.,0.,0.));
#443=DIRECTION('center_axis',(0.,0.,1.));
#444=DIRECTION('ref_axis',(1.,0.,0.));
#445=DIRECTION('center_axis',(0.,0.,-1.));
#446=DIRECTION('ref_axis',(1.,0.,0.));
#447=DIRECTION('',(0.,0.,-1.));
#448=DIRECTION('center_axis',(0.,0.,1.));
#449=DIRECTION('ref_axis',(1.,0.,0.));
#450=DIRECTION('center_axis',(0.,0.,-1.));
#451=DIRECTION('ref_axis',(1.,0.,0.));
#452=DIRECTION('',(0.,0.,-1.));
#453=DIRECTION('center_axis',(0.,0.,1.));
#454=DIRECTION('ref_axis',(1.,0.,0.));
#455=DIRECTION('center_axis',(0.,0.,-1.));
#456=DIRECTION('ref_axis',(1.,0.,0.));
#457=DIRECTION('',(0.,0.,-1.));
#458=DIRECTION('center_axis',(0.,0.,1.));
#459=DIRECTION('ref_axis',(1.,0.,0.));
#460=DIRECTION('center_axis',(0.,0.,-1.));
#461=DIRECTION('ref_axis',(1.,0.,0.));
#462=DIRECTION('',(0.,0.,-1.));
#463=DIRECTION('center_axis',(0.,0.,1.));
#464=DIRECTION('ref_axis',(1.,0.,0.));
#465=DIRECTION('center_axis',(0.,0.,-1.));
#466=DIRECTION('ref_axis',(1.,0.,0.));
#467=DIRECTION('',(0.,0.,-1.));
#468=DIRECTION('center_axis',(0.,0.,1.));
#469=DIRECTION('ref_axis',(1.,0.,0.));
#470=DIRECTION('center_axis',(0.,0.,-1.));
#471=DIRECTION('ref_axis',(1.,0.,0.));
#472=DIRECTION('',(0.,0.,-1.));
#473=DIRECTION('center_axis',(0.99498743710662,0.1,0.));
#474=DIRECTION('ref_axis',(-0.1,0.99498743710662,0.));
#475=DIRECTION('',(0.,0.,1.));
#476=DIRECTION('',(-0.1,0.99498743710662,0.));
#477=DIRECTION('',(0.,0.,1.));
#478=DIRECTION('center_axis',(0.,0.,1.));
#479=DIRECTION('ref_axis',(-8.9049138433476E-16,-1.,0.));
#480=DIRECTION('center_axis',(0.,0.,1.));
#481=DIRECTION('ref_axis',(-0.99498743710662,0.1,0.));
#482=DIRECTION('',(0.,0.,1.));
#483=DIRECTION('center_axis',(-0.99498743710662,0.1,0.));
#484=DIRECTION('ref_axis',(-0.1,-0.99498743710662,0.));
#485=DIRECTION('',(-0.1,-0.99498743710662,0.));
#486=DIRECTION('',(0.,0.,1.));
#487=DIRECTION('center_axis',(0.,0.,1.));
#488=DIRECTION('ref_axis',(0.99498743710662,0.100000000000002,0.));
#489=DIRECTION('center_axis',(0.,0.,1.));
#490=DIRECTION('ref_axis',(0.99498743710662,0.100000000000002,0.));
#491=DIRECTION('center_axis',(0.,0.,1.));
#492=DIRECTION('ref_axis',(1.,0.,0.));
#493=DIRECTION('',(0.,0.,1.));
#494=DIRECTION('',(1.,0.,0.));
#495=CARTESIAN_POINT('',(0.,0.,0.));
#496=CARTESIAN_POINT('',(0.,0.,0.));
#497=CARTESIAN_POINT('Origin',(0.,0.,0.25));
#498=CARTESIAN_POINT('',(2.25,-2.75545529808155E-16,0.));
#499=CARTESIAN_POINT('Origin',(0.,0.,0.));
#500=CARTESIAN_POINT('',(1.75,2.14313189850787E-16,0.5));
#501=CARTESIAN_POINT('',(2.,-2.44929359829471E-16,0.25));
#502=CARTESIAN_POINT('Origin',(0.,0.,0.5));
#503=CARTESIAN_POINT('Origin',(0.,0.,1.8));
#504=CARTESIAN_POINT('',(1.75,2.14313189850787E-16,1.8));
#505=CARTESIAN_POINT('Origin',(0.,0.,1.8));
#506=CARTESIAN_POINT('',(1.75,-2.14313189850787E-16,1.8));
#507=CARTESIAN_POINT('Origin',(0.,6.75,0.));
#508=CARTESIAN_POINT('',(1.49248115565993,15.15,0.));
#509=CARTESIAN_POINT('',(-1.49248115565993,15.15,0.));
#510=CARTESIAN_POINT('Origin',(0.,15.,0.));
#511=CARTESIAN_POINT('',(2.98496231131986,0.299999999999996,0.));
#512=CARTESIAN_POINT('',(1.49248115565993,15.15,0.));
#513=CARTESIAN_POINT('',(-2.98496231131986,0.3,0.));
#514=CARTESIAN_POINT('Origin',(0.,0.,0.));
#515=CARTESIAN_POINT('',(-1.49248115565993,15.15,0.));
#516=CARTESIAN_POINT('',(-0.7,15.,0.));
#517=CARTESIAN_POINT('Origin',(0.,15.,0.));
#518=CARTESIAN_POINT('',(-0.7,5.,0.));
#519=CARTESIAN_POINT('Origin',(0.,5.,0.));
#520=CARTESIAN_POINT('',(-0.7,7.,0.));
#521=CARTESIAN_POINT('Origin',(0.,7.,0.));
#522=CARTESIAN_POINT('',(-0.7,9.,0.));
#523=CARTESIAN_POINT('Origin',(0.,9.,0.));
#524=CARTESIAN_POINT('',(-0.7,13.,0.));
#525=CARTESIAN_POINT('Origin',(0.,13.,0.));
#526=CARTESIAN_POINT('',(-0.7,11.,0.));
#527=CARTESIAN_POINT('Origin',(0.,11.,0.));
#528=CARTESIAN_POINT('Origin',(0.,0.,5.4));
#529=CARTESIAN_POINT('',(2.3,2.81668763803891E-16,5.4));
#530=CARTESIAN_POINT('Origin',(0.,0.,5.4));
#531=CARTESIAN_POINT('',(2.3,2.81668763803891E-16,1.8));
#532=CARTESIAN_POINT('',(2.3,-2.81668763803891E-16,5.4));
#533=CARTESIAN_POINT('Origin',(0.,0.,1.8));
#534=CARTESIAN_POINT('Origin',(0.,0.,1.8));
#535=CARTESIAN_POINT('Origin',(0.,0.,0.));
#536=CARTESIAN_POINT('',(-2.8,-3.42901103761259E-16,5.4));
#537=CARTESIAN_POINT('Origin',(0.,0.,5.4));
#538=CARTESIAN_POINT('',(-2.8,0.,2.));
#539=CARTESIAN_POINT('',(-2.8,-3.42901103761259E-16,0.));
#540=CARTESIAN_POINT('Origin',(0.,0.,2.));
#541=CARTESIAN_POINT('Origin',(0.,0.,5.4));
#542=CARTESIAN_POINT('Origin',(0.,15.,0.));
#543=CARTESIAN_POINT('',(-0.7,15.,2.));
#544=CARTESIAN_POINT('Origin',(0.,15.,2.));
#545=CARTESIAN_POINT('',(-0.7,15.,0.));
#546=CARTESIAN_POINT('Origin',(0.,5.,0.));
#547=CARTESIAN_POINT('',(-0.7,5.,2.));
#548=CARTESIAN_POINT('Origin',(0.,5.,2.));
#549=CARTESIAN_POINT('',(-0.7,5.,0.));
#550=CARTESIAN_POINT('Origin',(0.,7.,0.));
#551=CARTESIAN_POINT('',(-0.7,7.,2.));
#552=CARTESIAN_POINT('Origin',(0.,7.,2.));
#553=CARTESIAN_POINT('',(-0.7,7.,0.));
#554=CARTESIAN_POINT('Origin',(0.,9.,0.));
#555=CARTESIAN_POINT('',(-0.7,9.,2.));
#556=CARTESIAN_POINT('Origin',(0.,9.,2.));
#557=CARTESIAN_POINT('',(-0.7,9.,0.));
#558=CARTESIAN_POINT('Origin',(0.,13.,0.));
#559=CARTESIAN_POINT('',(-0.7,13.,2.));
#560=CARTESIAN_POINT('Origin',(0.,13.,2.));
#561=CARTESIAN_POINT('',(-0.7,13.,0.));
#562=CARTESIAN_POINT('Origin',(0.,11.,0.));
#563=CARTESIAN_POINT('',(-0.7,11.,2.));
#564=CARTESIAN_POINT('Origin',(0.,11.,2.));
#565=CARTESIAN_POINT('',(-0.7,11.,0.));
#566=CARTESIAN_POINT('Origin',(2.98496231131986,0.3,0.));
#567=CARTESIAN_POINT('',(1.49248115565993,15.15,2.));
#568=CARTESIAN_POINT('',(1.49248115565993,15.15,0.));
#569=CARTESIAN_POINT('',(2.98496231131986,0.299999999999996,2.));
#570=CARTESIAN_POINT('',(1.49248115565993,15.15,2.));
#571=CARTESIAN_POINT('',(2.98496231131986,0.299999999999996,0.));
#572=CARTESIAN_POINT('Origin',(0.,0.,0.));
#573=CARTESIAN_POINT('',(-2.98496231131986,0.3,2.));
#574=CARTESIAN_POINT('Origin',(0.,0.,2.));
#575=CARTESIAN_POINT('',(-2.98496231131986,0.3,0.));
#576=CARTESIAN_POINT('Origin',(-1.49248115565993,15.15,0.));
#577=CARTESIAN_POINT('',(-1.49248115565993,15.15,2.));
#578=CARTESIAN_POINT('',(-1.49248115565993,15.15,2.));
#579=CARTESIAN_POINT('',(-1.49248115565993,15.15,0.));
#580=CARTESIAN_POINT('Origin',(0.,15.,0.));
#581=CARTESIAN_POINT('Origin',(0.,15.,2.));
#582=CARTESIAN_POINT('Origin',(0.,6.75,2.));
#583=CARTESIAN_POINT('',(0.,0.,0.));
#584=UNCERTAINTY_MEASURE_WITH_UNIT(LENGTH_MEASURE(0.01),#590,
'DISTANCE_ACCURACY_VALUE',
'Maximum model space distance between geometric entities at asserted c
onnectivities');
#585=UNCERTAINTY_MEASURE_WITH_UNIT(LENGTH_MEASURE(0.01),#590,
'DISTANCE_ACCURACY_VALUE',
'Maximum model space distance between geometric entities at asserted c
onnectivities');
#586=UNCERTAINTY_MEASURE_WITH_UNIT(LENGTH_MEASURE(0.01),#590,
'DISTANCE_ACCURACY_VALUE',
'Maximum model space distance between geometric entities at asserted c
onnectivities');
#587=(
GEOMETRIC_REPRESENTATION_CONTEXT(3)
GLOBAL_UNCERTAINTY_ASSIGNED_CONTEXT((#584))
GLOBAL_UNIT_ASSIGNED_CONTEXT((#590,#592,#593))
REPRESENTATION_CONTEXT('','3D')
);
#588=(
GEOMETRIC_REPRESENTATION_CONTEXT(3)
GLOBAL_UNCERTAINTY_ASSIGNED_CONTEXT((#585))
GLOBAL_UNIT_ASSIGNED_CONTEXT((#590,#592,#593))
REPRESENTATION_CONTEXT('','3D')
);
#589=(
GEOMETRIC_REPRESENTATION_CONTEXT(3)
GLOBAL_UNCERTAINTY_ASSIGNED_CONTEXT((#586))
GLOBAL_UNIT_ASSIGNED_CONTEXT((#590,#592,#593))
REPRESENTATION_CONTEXT('','3D')
);
#590=(
LENGTH_UNIT()
NAMED_UNIT(*)
SI_UNIT(.MILLI.,.METRE.)
);
#591=(
LENGTH_UNIT()
NAMED_UNIT(*)
SI_UNIT($,.METRE.)
);
#592=(
NAMED_UNIT(*)
PLANE_ANGLE_UNIT()
SI_UNIT($,.RADIAN.)
);
#593=(
NAMED_UNIT(*)
SI_UNIT($,.STERADIAN.)
SOLID_ANGLE_UNIT()
);
#594=SHAPE_DEFINITION_REPRESENTATION(#596,#599);
#595=SHAPE_DEFINITION_REPRESENTATION(#597,#600);
#596=PRODUCT_DEFINITION_SHAPE('',$,#602);
#597=PRODUCT_DEFINITION_SHAPE('',$,#603);
#598=PRODUCT_DEFINITION_SHAPE($,$,#14);
#599=SHAPE_REPRESENTATION('',(#345,#388),#587);
#600=SHAPE_REPRESENTATION('',(#346),#588);
#601=PRODUCT_DEFINITION_CONTEXT('part definition',#609,'design');
#602=PRODUCT_DEFINITION('SG90_arm','SG90_arm v2',#604,#601);
#603=PRODUCT_DEFINITION('SG90_arm_1','SG90_arm',#605,#601);
#604=PRODUCT_DEFINITION_FORMATION('',$,#611);
#605=PRODUCT_DEFINITION_FORMATION('',$,#612);
#606=PRODUCT_RELATED_PRODUCT_CATEGORY('SG90_arm v2','SG90_arm v2',(#611));
#607=PRODUCT_RELATED_PRODUCT_CATEGORY('SG90_arm','SG90_arm',(#612));
#608=APPLICATION_PROTOCOL_DEFINITION('international standard',
'automotive_design',2009,#609);
#609=APPLICATION_CONTEXT(
'Core Data for Automotive Mechanical Design Process');
#610=PRODUCT_CONTEXT('part definition',#609,'mechanical');
#611=PRODUCT('SG90_arm','SG90_arm v2',$,(#610));
#612=PRODUCT('SG90_arm_1','SG90_arm',$,(#610));
#613=PRESENTATION_STYLE_ASSIGNMENT((#615));
#614=PRESENTATION_STYLE_ASSIGNMENT((#616));
#615=SURFACE_STYLE_USAGE(.BOTH.,#617);
#616=SURFACE_STYLE_USAGE(.BOTH.,#618);
#617=SURFACE_SIDE_STYLE('',(#619));
#618=SURFACE_SIDE_STYLE('',(#620));
#619=SURFACE_STYLE_FILL_AREA(#621);
#620=SURFACE_STYLE_FILL_AREA(#622);
#621=FILL_AREA_STYLE('Steel - Satin',(#623));
#622=FILL_AREA_STYLE('ABS (White)',(#624));
#623=FILL_AREA_STYLE_COLOUR('Steel - Satin',#625);
#624=FILL_AREA_STYLE_COLOUR('ABS (White)',#626);
#625=COLOUR_RGB('Steel - Satin',0.627450980392157,0.627450980392157,0.627450980392157);
#626=COLOUR_RGB('ABS (White)',0.964705882352941,0.964705882352941,0.952941176470588);
ENDSEC;
END-ISO-10303-21;
